Forum de discussions sur le Jeu Le Seigneur des Anneaux par Games Workshop
 
AccueilFAQRechercherS'enregistrerMembresGroupesConnexion

Partagez | 
 

 tablature sda a la guitare

Aller en bas 
AuteurMessage
the punisher
Fermier hobbit
avatar

Nombre de messages : 16
Date d'inscription : 14/02/2007

MessageSujet: tablature sda a la guitare   Mar 8 Mai 2007 - 20:49

Voila pour les personne qui joue a la guitare une petit tablature sur la musique ou pipin chante pour le rois , lorsque faramir charge osgiliath .

----------------------------------------------------/-------------------------------------/
---------------------------------------------------/-------------------------------------/
--------------------------------------------------/-------------------------------------/
--0---7--7--7---9---10---12--10--9---7--/--0--0---7--7---9---10--9--7---/
-------------------------------------------------/-------------------------------------/
------------------------------------------------/-------------------------------------/

---------------------/----------------------/-------------------------------------/
--------------------/----------------------/-------------------------------------/
-------------------/--7--9--10--9--7--/-------------------------------------/
--12--12---7--/-----------------------/--0--0---7--7---9--10--9---7---/
-----------------/-----------------------/-------------------------------------/
----------------/-----------------------/-------------------------------------/

--------------------------/-----------------------/---------------------/
-------------------------/-----------------------/---------------------/
------------------------/---7--9--10--9--7---/---------------------/
--12--12---12--7----/-----------------------/--0--7--7--7--7---/
----------------------/-----------------------/----------------------/
---------------------/-----------------------/----------------------/


-----------------------------------------------------------------------------/
----------------------------------------------------------------------------/
---------------------------------------------------------------------------/
--7---9--10--10--12---9-------------5--7--7-----------5--7--7----/
-------------------------------------------------------------------------/
------------------------------------------------------------------------/

désolé pour la mise en fort mais je n'arrive pas a aligné les silences correctement
Ps : dite moi si tes personne joue pour que je pose d'autre tablature .
Revenir en haut Aller en bas
Voir le profil de l'utilisateur
jerem_447
Ecuyer du Rohan
avatar

Masculin Nombre de messages : 61
Age : 26
Localisation : Soignies- Belgique
Armée(s) Jouée(s) : Mordor, Hanrad, Rohan
Date d'inscription : 30/06/2007

MessageSujet: Re: tablature sda a la guitare   Mar 3 Juil 2007 - 16:38

Moi j'essaie de jouer de la guitar mais je trouve que c'est une super idée ...
Revenir en haut Aller en bas
Voir le profil de l'utilisateur
Hgs120
Ecuyer du Rohan
avatar

Masculin Nombre de messages : 60
Age : 25
Localisation : Près de Mons
Armée(s) Jouée(s) : orcs mordor,homme de minas thirit,
Date d'inscription : 21/07/2006

MessageSujet: Re: tablature sda a la guitare   Mer 4 Juil 2007 - 22:25

cool je sais jouer de la guitare . Il faut une électrique ou une accoustique ??
Revenir en haut Aller en bas
Voir le profil de l'utilisateur http://hgs120.skyblog.com
le seigneur oriental
Garde de la Citadelle
avatar

Masculin Nombre de messages : 280
Age : 25
Localisation : Quelque part.....dans le Rhûn
Armée(s) Jouée(s) : Les Orientaux, les Variags de Khand, le Gondor
Date d'inscription : 21/02/2007

MessageSujet: Re: tablature sda a la guitare   Mer 4 Juil 2007 - 22:47

Le plus logique serait une acoustique car je vois mal une guitare électrique avec du seigneur des anneaux.
Revenir en haut Aller en bas
Voir le profil de l'utilisateur
jerem_447
Ecuyer du Rohan
avatar

Masculin Nombre de messages : 61
Age : 26
Localisation : Soignies- Belgique
Armée(s) Jouée(s) : Mordor, Hanrad, Rohan
Date d'inscription : 30/06/2007

MessageSujet: Re: tablature sda a la guitare   Mer 4 Juil 2007 - 22:53

Moi je l'ai essaier a l'electrique et c'est plutot marrant ce que sa donne ...
Revenir en haut Aller en bas
Voir le profil de l'utilisateur
le seigneur oriental
Garde de la Citadelle
avatar

Masculin Nombre de messages : 280
Age : 25
Localisation : Quelque part.....dans le Rhûn
Armée(s) Jouée(s) : Les Orientaux, les Variags de Khand, le Gondor
Date d'inscription : 21/02/2007

MessageSujet: Re: tablature sda a la guitare   Mer 4 Juil 2007 - 22:54

Du seigneur des anneaux version rock sa doit être marrant.
Revenir en haut Aller en bas
Voir le profil de l'utilisateur
dunedain
Guerrier du Gondor
avatar

Masculin Nombre de messages : 100
Age : 25
Localisation : en arnor pres de fornost
Armée(s) Jouée(s) : un peu pres de toute mais surtout arnor et gondor
Date d'inscription : 30/12/2006

MessageSujet: Re: tablature sda a la guitare   Mer 4 Juil 2007 - 23:29

pourriez vous vous enregistrez quand vous jouer et vous mettez votre oeuvre sur internet
(un site comme radioblog par exemple)
Revenir en haut Aller en bas
Voir le profil de l'utilisateur http://www.rastaflo03.skyblog.com
Eldarion
Ecuyer du Rohan
avatar

Masculin Nombre de messages : 98
Age : 24
Armée(s) Jouée(s) : Ecthelion, Rangers, Fiefs, Minas Tirith
Date d'inscription : 25/06/2007

MessageSujet: Re: tablature sda a la guitare   Jeu 5 Juil 2007 - 11:42

rhhaa... le debut de la gloire^^
Revenir en haut Aller en bas
Voir le profil de l'utilisateur
jerem_447
Ecuyer du Rohan
avatar

Masculin Nombre de messages : 61
Age : 26
Localisation : Soignies- Belgique
Armée(s) Jouée(s) : Mordor, Hanrad, Rohan
Date d'inscription : 30/06/2007

MessageSujet: Re: tablature sda a la guitare   Jeu 5 Juil 2007 - 12:00

Je veux bien mais j'ai rien pour m'enregistrer puis mettre sur l'ordi ... désolé geek
Revenir en haut Aller en bas
Voir le profil de l'utilisateur
dunedain
Guerrier du Gondor
avatar

Masculin Nombre de messages : 100
Age : 25
Localisation : en arnor pres de fornost
Armée(s) Jouée(s) : un peu pres de toute mais surtout arnor et gondor
Date d'inscription : 30/12/2006

MessageSujet: Re: tablature sda a la guitare   Jeu 5 Juil 2007 - 12:02

t'aspas un MP3 qui fait dictaphone ca pourrait donner un petit exemple
Revenir en haut Aller en bas
Voir le profil de l'utilisateur http://www.rastaflo03.skyblog.com
Hgs120
Ecuyer du Rohan
avatar

Masculin Nombre de messages : 60
Age : 25
Localisation : Près de Mons
Armée(s) Jouée(s) : orcs mordor,homme de minas thirit,
Date d'inscription : 21/07/2006

MessageSujet: Re: tablature sda a la guitare   Jeu 5 Juil 2007 - 13:57

Moi nn plus dsl je sais pas enregistrer ( en plus je n'ai qu'une guitare électrique )
Revenir en haut Aller en bas
Voir le profil de l'utilisateur http://hgs120.skyblog.com
jerem_447
Ecuyer du Rohan
avatar

Masculin Nombre de messages : 61
Age : 26
Localisation : Soignies- Belgique
Armée(s) Jouée(s) : Mordor, Hanrad, Rohan
Date d'inscription : 30/06/2007

MessageSujet: Re: tablature sda a la guitare   Jeu 5 Juil 2007 - 15:06

Wais je peut essaier ... je te dirait si sa marche et j'enverrai le morceau
Revenir en haut Aller en bas
Voir le profil de l'utilisateur
bibi
Fermier hobbit


Masculin Nombre de messages : 2
Age : 28
Armée(s) Jouée(s) : gondor
Date d'inscription : 17/08/2007

MessageSujet: Re: tablature sda a la guitare   Sam 18 Aoû 2007 - 17:30

c une bonne idée ,je le fai a la electrique et sa donne bien.J'essai de menregistré et dè que c fai je lenvoi.

Attention à l'orthographe, le langage SMS est interdit
Revenir en haut Aller en bas
Voir le profil de l'utilisateur
Contenu sponsorisé




MessageSujet: Re: tablature sda a la guitare   

Revenir en haut Aller en bas
 
tablature sda a la guitare
Revenir en haut 
Page 1 sur 1
 Sujets similaires
-
» tablature sda a la guitare
» Cours de guitare
» Guitare Snaker THE Guitare Master !
» Guitare, quand tu nous tiens ! {PV Evan}[Terminé]
» Premier jour avec sa guitare

Permission de ce forum:Vous ne pouvez pas répondre aux sujets dans ce forum
l'Anneau Unique :: Autres :: La taverne de l'anneau-
Sauter vers: